San Diego Classic Film Calendar

Friday, May 19, 2017

Over the Rainbow Ukulele Chord Melody Solo Tabs

My take on "Over the Rainbow" by Judy Garland on ukulele in the key of C. I'm playing on a high G, but I don't think there's anything that wouldn't work on low G.


The tabs for it are the following. If something is wrong, please let me know.



#------------------------------PLEASE NOTE---------------------------------#
#This file is the author's own work and represents their interpretation    #
#of the song. You may only use this file for private study, scholarship,   # 
#or research.                                                              #
#-------------------------------------------------------------------------##

                                OVER THE RAINBOW

Music by Harold and Arlen
Arranged by Chris Sturhann

Gtr I (G C E A) - 'Ukulele (gCEA)'

    C Em        F     C5   F   C         F G7          C
  
|---3-2---0-2-3---|-0------0-8-7-|-3-5-7-8-5-2-3-5-|-7-3----|
|---0-3-3-------1-|-1-3----2-5-0-|-------5-7-------|---0----|
|-0-0-4---------0-|-0-0----0-0-0-|-------0-5-------|---0----|
|---0-0---------2-|---0----1-----|-----------------|---0----|


    C Em        F     C5      F   C         F G7          C
  
|---3-2---0-2-3---|-0---------0-8-7-|-3-5-7-8-5-2-3-5-|-7-3----|
|---0-3-3-------1-|-1-3-2-1-0-2-5-0-|-------5-7-------|---0----|
|-0-0-4---------0-|-0-0-------0-0-0-|-------0-5-------|---0----|
|---0-0---------2-|---0-------1-----|-----------------|---0----|


  C5                G7          F  C5                   G7
  
|-------------------2-----------0------------------------------------|
|-3-0-3-0-3-0-3-0-3-1-3-1-3-1-3-2--3--3-0-3-0-3-0-3-0-3-1-3-1-2-1-3--|
|-0-0-0-0-0-0-0-0-0-2-2-2-2-2-2-0--0--0-0-0-0-0-0-0-0-0-2-2-2-3-2-2--|
|-0-----------------0-----------1--0---------------------------------|


  Am  F
  
|-0-0-3-0----|
|-5-5-2-2----|
|-4-4-0-0----|
|-5-5-1-1----|


    C Em        F     C5      F   C         F G7          C
  
|---3-2---0-2-3---|-0---------0-8-7-|-3-5-7-8-5-2-3-5-|-7-3----|
|---0-3-3-------1-|-1-3-2-1-0-2-5-0-|-------5-7-------|---0----|
|-0-0-4---------0-|-0-0-------0-0-0-|-------0-5-------|---0----|
|---0-0---------2-|---0-------1-----|-----------------|---0----|


  C5                  G7          F G7C
  
|-----------------|---------------0-2-3----|
|-3-0-3-0-3-0-3-0-|-3-1-3-1-3-1-3-2-1-0----|
|-0-0-0-0-0-0-0-0-|-0-2-2-2-2-2-2-0-2-0----|
|-0---------------|---0-----------1-0-0----|


******************************************************************************
* Generated using Power Tab Editor by Brad Larsen -                          * 
* http://powertab.guitarnetwork.org                                          *
******************************************************************************

No comments:

Post a Comment